Menu ☰

Savoir aimer by Florent Pagny

added on 08-May-2017
Savoir Aimer
Florent Pagny

CAPO 2


INTRO:
Em C Bm Am Bm

e --3---3-2-0---3-2-----2---3---2---0---3-2-0---3-2-----3-----
B --0---0-0-1---1-1-3---3---3---3---1?--1-1-1---1-1---3-------
G --0-------0-------4-4---4---4---4-2-2-----2-2-----4-----4---
D --2-2-----2-2-----4---------------2---------------4---------
A ----------------------------------0-------------------------
E ------------------------------------------------------------


Rythm:

e --0---0---0---0-----
B --0---0---0---0-----
G --0---0---0---0-----
D ----2---2---2---2--- etc...
A --------------------
E --0-----------------



Em
Savoir sourire,
Bm
À une inconnue qui passe,
Am
N'en garder aucune trace,
Bm
Sinon celle du plaisir
Am
Savoir aimer
Bm
Sans rien attendre en retour,
C
Ni égard, ni grand amour,
D D#m/5+ (xx1x02)
Pas même l'espoir d'être aimé,


CHORUS
Em C
Mais savoir donner,
D Am
Donner sans reprendre, ne rien faire qu'apprendre
Em C
Apprendre à aimer,
D Am
Aimer sans attendre, aimer à tout prendre,
Em C
Apprendre à sourire,
D Am
Rien que pour le geste, sans vouloir le reste
Em C
Et apprendre à Vivre
D Am
Et s'en aller.


Rejouer INTRO


Savoir attendre,
Goûter à ce plein bonheur
Qu'on vous donne comme par erreur,
Tant on ne l'attendait plus.
Se voir y croire
pour tromper la peur du vide
Ancrée comme autant de rides
Qui ternissent les miroirs


CHORUS


Em
Savoir souffrir
C Cadd9(x32030)ou(x35530)
En silence, sans murmure,
D
Ni défense ni armure
C Cadd9
Souffrir à vouloir mourir
Am
Et se relever
Bm
Comme on renaît de ses cendres,
C
Avec tant d'amour à revendre
D D#m/5+
Qu'on tire un trait sur le passé.


CHORUS


Apprendre à rêver
À rêver pour deux,
Rien qu'en fermant les yeux,
Et savoir donner
Donner sans rature
Ni demi-mesure
Apprendre à rester.
Vouloir jusqu'au bout
Rester malgré tout,
Apprendre à aimer,
Et s'en aller,
Et s'en aller...