Menu ☰

Canonball by Damien Rice

added on 08-May-2017
CAPO 6th

INTRO

|-------------------------------------------|
|---------------------------3-3-3-3-3-------|
|----0-0-0-0-0-0-0----------0-0-2-2-0h2p0-0-|
|----5-5-5-5-4-2-0h2p0------0-0-0-0-0-----2-|
|----2-2-2-2-2-3-3-----0h2--2-2-x-x-x-----2-|
|-0--------------------3----3---2-2-2-----0-| x2

|---------------------------------------0-0--0-0-0-0-0-0-0-|
|-0-0-0-0-0---0-0-----3-3-3-3-3-3---3/5-0-1--1-1-1-1-1-1-1-|
|-4-4-4-4-4h5-4-0h2p0-0-0-0-2-2-2p0-2/4-0-0--0-0-0-0-0-0-0-|
|-0-0-0-0-0---0-0-----0-0-0-0-0-0---0-----2--2-2-2-2-2-2-2-|
|-2-2-2-2-2---2-2-----2-2-2-x-x-x---------3--3-3-3-3-3-3-3-|
|---------------------3-3---2-2-2--------------------------|


Verse 1

Theres still a little bt of your taste, in my mouth
Still a little bit of you laced, with my doubt
It's still a little hard to say, Whats going on


Verse 2
Theres still a little bit of your ghost, your weakness
Theres still a little bit of your face, I haven't kissed
You step a little closer each day, that I can't say
What's going on

Chorus
Stones, taught me to fly
Love, it taught me to lie
Life, it taught me to die
So it's not hard to fall
When you float like a cannon - ball

(repeat INTRO)

Verse 3
There's still a little bit of your song, in my ear
Theres still a little bit of your words long to hear
You step a little closer to me
So close that I cant see whats going on

Chorus
Stones, taught me to fly
Love, it taught me to lie
Life, it taught me to die
So it's not hard to fall
When you float like a cannon...

Stones, taught me to fly
Love, it taught me to lie
Cos it's not hard to fall
And I don't wanna scare her
Cos it's not hard to fall
And I don't wanna lose
It's not hard to grow
When you know that you just don't know

(repeat INTRO to end)