Menu ☰

Come Home by Ari Hest

added on 08-May-2017
Come Home
Ari Hest

I don't need no evidence
Written in a paper card
Saying that you miss me, that living alone is awfully hard

CHORUS : Just come home as soon as you can
Come home, don't ever leave again
Then together we will spend, every moment till the end

I don't want no diatribe
Telling me how you feel inside
Words can be quite vivid, but they can't bring you to me live

CHORUS

Its Only 3,000 miles, give or take a few
Its only 3,000 miles, between my hands and you

I don't need no good luck charm
Hanging around my big old neck
Nothing in this world could make your being away correct

CHORUS


CHORDS
CAPO 2

VERSE :
e--------x-------x-----x------x---------x-------x-
b--------x-------x-----x------x---------x-------x-
g--------4-------6-----5------7---------9-------9-
d--------5-------5-----5------5---------7-------7-
a--------x-------x-----x------x---------x-------x-
E--------3-------6-----5------7---------8-------9-

e----x-----x-----x---------x-------x-----x------x--
b----x-----x-----x---------x-------x-----x------x--
g--(12)--(11)--(12)------(12)----(12)--(12)---(12)-
d--(12)--(12)--(10)------(10)----(10)----9------9--
a----x-----x-----x---------x-------x-----x------x--
E--(10)--(10)--(11)------(12)----(11)--(10)-----9--

e--------x-------x-----x------x----x-------
b--------x-------x-----x------x----x-------
g--------9-------7-----6------5----5-------
d--------7-------5-----5------5----4-------
a--------x-------x-----x------x----5-------
E--------8-------7-----6------5----x-------

CHORUS :
e--------0-------0-----0------0------0-------0-----0------0-
b--------3-------1-----3------3------3-------1-----3------3-
g--------0-------4-----0------0------0-------4-----0------0-
d--------4-------2-----4------4------4-------2-----4------4-
a--------2-------0-----2------5------2-------0-----3------5-
E--------0-------x-----x------x------0-------x-----x------x-